ISO-10303-21;
HEADER;
FILE_DESCRIPTION (( 'STEP AP203' ),
    '1' );
FILE_NAME ('N-SF1-BPBSC-12.7-900-1300.STEP',
    '2021-01-05T02:14:15',
    ( '' ),
    ( '' ),
    'SwSTEP 2.0',
    'SolidWorks 2020',
    '' );
FILE_SCHEMA (( 'CONFIG_CONTROL_DESIGN' ));
ENDSEC;

DATA;
#1 = VECTOR ( 'NONE', #154, 1000.000000000000114 ) ;
#2 = CARTESIAN_POINT ( 'NONE',  ( 0.000000000000000000, 0.000000000000000000, 0.000000000000000000 ) ) ;
#3 = CARTESIAN_POINT ( 'NONE',  ( -6.349999999999999645, -6.350000000000000533, 6.349999999999999645 ) ) ;
#4 = DATE_AND_TIME ( #125, #187 ) ;
#5 = EDGE_LOOP ( 'NONE', ( #170, #93, #102, #194 ) ) ;
#6 = DIRECTION ( 'NONE',  ( 0.000000000000000000, -0.000000000000000000, 1.000000000000000000 ) ) ;
#7 = ORIENTED_EDGE ( 'NONE', *, *, #91, .T. ) ;
#8 = CARTESIAN_POINT ( 'NONE',  ( 6.349999999999999645, -6.350000000000000533, 6.349999999999999645 ) ) ;
#9 = AXIS2_PLACEMENT_3D ( 'NONE', #192, #59, #147 ) ;
#10 = CARTESIAN_POINT ( 'NONE',  ( 6.349999999999996980, 6.349999999999996980, 6.349999999999999645 ) ) ;
#11 = FACE_OUTER_BOUND ( 'NONE', #43, .T. ) ;
#12 = EDGE_CURVE ( 'NONE', #21, #220, #54, .T. ) ;
#13 = VECTOR ( 'NONE', #113, 1000.000000000000000 ) ;
#14 = APPROVAL_PERSON_ORGANIZATION ( #199, #279, #77 ) ;
#15 = ADVANCED_FACE ( 'NONE', ( #29 ), #203, .F. ) ;
#16 = DIRECTION ( 'NONE',  ( -0.000000000000000000, -0.000000000000000000, -1.000000000000000000 ) ) ;
#17 = VERTEX_POINT ( 'NONE', #128 ) ;
#18 = CARTESIAN_POINT ( 'NONE',  ( -6.349999999999999645, -6.350000000000000533, -6.349999999999999645 ) ) ;
#19 = ORIENTED_EDGE ( 'NONE', *, *, #141, .F. ) ;
#20 = PLANE ( 'NONE',  #106 ) ;
#21 = VERTEX_POINT ( 'NONE', #230 ) ;
#22 = VECTOR ( 'NONE', #260, 1000.000000000000000 ) ;
#23 = CARTESIAN_POINT ( 'NONE',  ( 6.349999999999998757, 6.349999999999998757, 6.349999999999999645 ) ) ;
#24 = ADVANCED_FACE ( 'NONE', ( #226 ), #157, .F. ) ;
#25 = APPROVAL_DATE_TIME ( #48, #320 ) ;
#26 = PERSON_AND_ORGANIZATION ( #138, #238 ) ;
#27 = ORIENTED_EDGE ( 'NONE', *, *, #208, .T. ) ;
#28 = APPROVAL_ROLE ( '' ) ;
#29 = FACE_OUTER_BOUND ( 'NONE', #197, .T. ) ;
#30 = DIRECTION ( 'NONE',  ( -2.220446049250312588E-16, 1.000000000000000000, 0.000000000000000000 ) ) ;
#31 = EDGE_LOOP ( 'NONE', ( #167, #89, #318 ) ) ;
#32 = CARTESIAN_POINT ( 'NONE',  ( 6.349999999999996980, 6.349999999999996980, 6.349999999999999645 ) ) ;
#33 = DIRECTION ( 'NONE',  ( -0.7071067811865475727, -0.7071067811865475727, 0.000000000000000000 ) ) ;
#34 = ADVANCED_FACE ( 'NONE', ( #160 ), #303, .F. ) ;
#35 = CARTESIAN_POINT ( 'NONE',  ( 6.349999999999996980, 6.349999999999996980, -6.349999999999999645 ) ) ;
#36 = APPLICATION_CONTEXT ( 'configuration controlled 3d designs of mechanical parts and assemblies' ) ;
#37 = AXIS2_PLACEMENT_3D ( 'NONE', #236, #108, #30 ) ;
#38 = MANIFOLD_SOLID_BREP ( 'Í¹Ì¨-À', #148 ) ;
#39 = DIRECTION ( 'NONE',  ( 0.000000000000000000, 0.000000000000000000, 1.000000000000000000 ) ) ;
#40 = SECURITY_CLASSIFICATION ( '', '', #205 ) ;
#41 = CARTESIAN_POINT ( 'NONE',  ( -6.349999999999999645, -6.350000000000000533, 6.349999999999999645 ) ) ;
#42 = EDGE_LOOP ( 'NONE', ( #68, #302, #267 ) ) ;
#43 = EDGE_LOOP ( 'NONE', ( #143, #246, #7 ) ) ;
#44 = DIRECTION ( 'NONE',  ( 0.000000000000000000, 0.000000000000000000, -1.000000000000000000 ) ) ;
#45 = ORIENTED_EDGE ( 'NONE', *, *, #208, .F. ) ;
#46 = VECTOR ( 'NONE', #255, 1000.000000000000000 ) ;
#47 = COORDINATED_UNIVERSAL_TIME_OFFSET ( 8, 0, .AHEAD. ) ;
#48 = DATE_AND_TIME ( #49, #112 ) ;
#49 = CALENDAR_DATE ( 2021, 5, 1 ) ;
#50 = PERSON_AND_ORGANIZATION_ROLE ( 'design_supplier' ) ;
#51 = ORIENTED_EDGE ( 'NONE', *, *, #91, .F. ) ;
#52 = CARTESIAN_POINT ( 'NONE',  ( 6.349999999999996980, 6.349999999999996980, 6.349999999999999645 ) ) ;
#53 = ADVANCED_FACE ( 'NONE', ( #158 ), #56, .F. ) ;
#54 = LINE ( 'NONE', #254, #1 ) ;
#55 = LINE ( 'NONE', #130, #88 ) ;
#56 = PLANE ( 'NONE',  #253 ) ;
#57 = DIRECTION ( 'NONE',  ( 0.7071067811865475727, 0.7071067811865475727, 0.000000000000000000 ) ) ;
#58 = EDGE_CURVE ( 'NONE', #71, #292, #212, .T. ) ;
#59 = DIRECTION ( 'NONE',  ( -1.000000000000000000, -6.829619984160658046E-17, 0.000000000000000000 ) ) ;
#60 = EDGE_CURVE ( 'NONE', #178, #73, #233, .T. ) ;
#61 = FACE_OUTER_BOUND ( 'NONE', #42, .T. ) ;
#62 = AXIS2_PLACEMENT_3D ( 'NONE', #237, #135, #207 ) ;
#63 = ORIENTED_EDGE ( 'NONE', *, *, #171, .F. ) ;
#64 =( GEOMETRIC_REPRESENTATION_CONTEXT ( 3 ) GLOBAL_UNCERTAINTY_ASSIGNED_CONTEXT ( ( #240 ) ) GLOBAL_UNIT_ASSIGNED_CONTEXT ( ( #119, #317, #195 ) ) REPRESENTATION_CONTEXT ( 'NONE', 'WORKASPACE' ) );
#65 = CC_DESIGN_DATE_AND_TIME_ASSIGNMENT ( #285, #174, ( #40 ) ) ;
#66 = DIRECTION ( 'NONE',  ( 0.7071067811865474617, 0.7071067811865474617, 0.000000000000000000 ) ) ;
#67 = FACE_OUTER_BOUND ( 'NONE', #75, .T. ) ;
#68 = ORIENTED_EDGE ( 'NONE', *, *, #12, .T. ) ;
#69 = APPROVAL_DATE_TIME ( #4, #133 ) ;
#70 = AXIS2_PLACEMENT_3D ( 'NONE', #2, #94, #201 ) ;
#71 = VERTEX_POINT ( 'NONE', #307 ) ;
#72 = APPROVAL_ROLE ( '' ) ;
#73 = VERTEX_POINT ( 'NONE', #277 ) ;
#74 = LINE ( 'NONE', #52, #46 ) ;
#75 = EDGE_LOOP ( 'NONE', ( #256, #321, #206, #312 ) ) ;
#76 = CARTESIAN_POINT ( 'NONE',  ( 6.349999999999999645, -6.350000000000000533, -6.349999999999999645 ) ) ;
#77 = APPROVAL_ROLE ( '' ) ;
#78 = VECTOR ( 'NONE', #168, 1000.000000000000000 ) ;
#79 = DIRECTION ( 'NONE',  ( -2.220446049250312588E-16, 1.000000000000000000, 0.000000000000000000 ) ) ;
#80 = APPROVAL_DATE_TIME ( #234, #279 ) ;
#81 = CARTESIAN_POINT ( 'NONE',  ( 6.349999999999999645, -6.350000000000000533, 6.349999999999999645 ) ) ;
#82 = DIRECTION ( 'NONE',  ( -1.000000000000000000, 2.903408047666378392E-16, 0.000000000000000000 ) ) ;
#83 = EDGE_CURVE ( 'NONE', #17, #218, #55, .T. ) ;
#84 = VECTOR ( 'NONE', #44, 1000.000000000000000 ) ;
#85 = DIRECTION ( 'NONE',  ( -0.000000000000000000, 0.000000000000000000, 1.000000000000000000 ) ) ;
#86 = EDGE_LOOP ( 'NONE', ( #124, #19, #45 ) ) ;
#87 = LINE ( 'NONE', #41, #163 ) ;
#88 = VECTOR ( 'NONE', #305, 1000.000000000000114 ) ;
#89 = ORIENTED_EDGE ( 'NONE', *, *, #315, .F. ) ;
#90 = CC_DESIGN_APPROVAL ( #320, ( #297 ) ) ;
#91 = EDGE_CURVE ( 'NONE', #73, #116, #177, .T. ) ;
#92 = DIRECTION ( 'NONE',  ( -2.220446049250312588E-16, 1.000000000000000000, 0.000000000000000000 ) ) ;
#93 = ORIENTED_EDGE ( 'NONE', *, *, #271, .F. ) ;
#94 = DIRECTION ( 'NONE',  ( 0.000000000000000000, 0.000000000000000000, 1.000000000000000000 ) ) ;
#95 = COORDINATED_UNIVERSAL_TIME_OFFSET ( 8, 0, .AHEAD. ) ;
#96 = AXIS2_PLACEMENT_3D ( 'NONE', #3, #284, #6 ) ;
#97 = EDGE_LOOP ( 'NONE', ( #51, #280, #175, #120 ) ) ;
#98 = PRODUCT_DEFINITION_FORMATION_WITH_SPECIFIED_SOURCE ( 'ANY', '', #186, .NOT_KNOWN. ) ;
#99 = PERSON_AND_ORGANIZATION ( #138, #238 ) ;
#100 = VERTEX_POINT ( 'NONE', #76 ) ;
#101 = LINE ( 'NONE', #136, #278 ) ;
#102 = ORIENTED_EDGE ( 'NONE', *, *, #122, .F. ) ;
#103 = LINE ( 'NONE', #216, #13 ) ;
#104 = VERTEX_POINT ( 'NONE', #81 ) ;
#105 = CARTESIAN_POINT ( 'NONE',  ( 6.349999999999998757, 6.349999999999998757, 6.349999999999999645 ) ) ;
#106 = AXIS2_PLACEMENT_3D ( 'NONE', #313, #85, #214 ) ;
#107 = PRODUCT_RELATED_PRODUCT_CATEGORY ( 'detail', '', ( #186 ) ) ;
#108 = DIRECTION ( 'NONE',  ( 0.000000000000000000, 0.000000000000000000, 1.000000000000000000 ) ) ;
#109 = VECTOR ( 'NONE', #257, 1000.000000000000000 ) ;
#110 = EDGE_CURVE ( 'NONE', #104, #100, #179, .T. ) ;
#111 = VECTOR ( 'NONE', #210, 1000.000000000000000 ) ;
#112 = LOCAL_TIME ( 10, 14, 15.00000000000000000, #47 ) ;
#113 = DIRECTION ( 'NONE',  ( 1.000000000000000000, 0.000000000000000000, 0.000000000000000000 ) ) ;
#114 = ORIENTED_EDGE ( 'NONE', *, *, #58, .T. ) ;
#115 = CARTESIAN_POINT ( 'NONE',  ( -6.349999999999999645, -6.350000000000000533, 6.349999999999999645 ) ) ;
#116 = VERTEX_POINT ( 'NONE', #287 ) ;
#117 = FACE_OUTER_BOUND ( 'NONE', #86, .T. ) ;
#118 = CC_DESIGN_DATE_AND_TIME_ASSIGNMENT ( #274, #152, ( #297 ) ) ;
#119 =( LENGTH_UNIT ( ) NAMED_UNIT ( * ) SI_UNIT ( .MILLI., .METRE. ) );
#120 = ORIENTED_EDGE ( 'NONE', *, *, #171, .T. ) ;
#121 = CALENDAR_DATE ( 2021, 5, 1 ) ;
#122 = EDGE_CURVE ( 'NONE', #104, #21, #139, .T. ) ;
#123 = EDGE_LOOP ( 'NONE', ( #173, #63, #114, #273 ) ) ;
#124 = ORIENTED_EDGE ( 'NONE', *, *, #58, .F. ) ;
#125 = CALENDAR_DATE ( 2021, 5, 1 ) ;
#126 = SHAPE_DEFINITION_REPRESENTATION ( #189, #176 ) ;
#127 = CC_DESIGN_PERSON_AND_ORGANIZATION_ASSIGNMENT ( #229, #282, ( #40 ) ) ;
#128 = CARTESIAN_POINT ( 'NONE',  ( 6.349999999999998757, 6.349999999999998757, -6.349999999999999645 ) ) ;
#129 = ADVANCED_FACE ( 'NONE', ( #306 ), #161, .F. ) ;
#130 = CARTESIAN_POINT ( 'NONE',  ( 6.349999999999998757, 6.349999999999998757, -6.349999999999999645 ) ) ;
#131 = DIRECTION ( 'NONE',  ( 1.000000000000000000, -2.220446049250312588E-16, 0.000000000000000000 ) ) ;
#132 = CARTESIAN_POINT ( 'NONE',  ( -6.349999999999998757, -6.349999999999997868, -6.349999999999999645 ) ) ;
#133 = APPROVAL ( #252, 'UNSPECIFIED' ) ;
#134 = COORDINATED_UNIVERSAL_TIME_OFFSET ( 8, 0, .AHEAD. ) ;
#135 = DIRECTION ( 'NONE',  ( -0.000000000000000000, 0.000000000000000000, 1.000000000000000000 ) ) ;
#136 = CARTESIAN_POINT ( 'NONE',  ( -6.350000000000002309, 6.350000000000001421, 6.349999999999999645 ) ) ;
#137 = EDGE_CURVE ( 'NONE', #116, #178, #155, .T. ) ;
#138 = PERSON ( 'UNSPECIFIED', 'UNSPECIFIED', 'UNSPECIFIED', ('UNSPECIFIED'), ('UNSPECIFIED'), ('UNSPECIFIED') ) ;
#139 = LINE ( 'NONE', #105, #111 ) ;
#140 = VECTOR ( 'NONE', #290, 1000.000000000000000 ) ;
#141 = EDGE_CURVE ( 'NONE', #299, #71, #235, .T. ) ;
#142 = LINE ( 'NONE', #115, #140 ) ;
#143 = ORIENTED_EDGE ( 'NONE', *, *, #137, .T. ) ;
#144 = MANIFOLD_SOLID_BREP ( '¾µÏ', #264 ) ;
#145 = LINE ( 'NONE', #241, #211 ) ;
#146 = EDGE_CURVE ( 'NONE', #299, #73, #101, .T. ) ;
#147 = DIRECTION ( 'NONE',  ( 6.829619984160658046E-17, -1.000000000000000000, 0.000000000000000000 ) ) ;
#148 = CLOSED_SHELL ( 'NONE', ( #258, #24, #251, #219, #34 ) ) ;
#149 = APPROVAL_PERSON_ORGANIZATION ( #319, #133, #28 ) ;
#150 = APPLICATION_PROTOCOL_DEFINITION ( 'international standard', 'config_control_design', 1994, #36 ) ;
#151 = DIRECTION ( 'NONE',  ( 0.000000000000000000, 0.000000000000000000, 1.000000000000000000 ) ) ;
#152 = DATE_TIME_ROLE ( 'creation_date' ) ;
#153 = AXIS2_PLACEMENT_3D ( 'NONE', #182, #262, #57 ) ;
#154 = DIRECTION ( 'NONE',  ( -0.7071067811865474617, -0.7071067811865474617, 0.000000000000000000 ) ) ;
#155 = LINE ( 'NONE', #35, #314 ) ;
#156 = LOCAL_TIME ( 10, 14, 15.00000000000000000, #221 ) ;
#157 = PLANE ( 'NONE',  #96 ) ;
#158 = FACE_OUTER_BOUND ( 'NONE', #97, .T. ) ;
#159 = DIRECTION ( 'NONE',  ( -0.7071067811865475727, -0.7071067811865475727, 0.000000000000000000 ) ) ;
#160 = FACE_OUTER_BOUND ( 'NONE', #31, .T. ) ;
#161 = PLANE ( 'NONE',  #153 ) ;
#162 = ADVANCED_FACE ( 'NONE', ( #11 ), #204, .F. ) ;
#163 = VECTOR ( 'NONE', #270, 1000.000000000000000 ) ;
#164 = AXIS2_PLACEMENT_3D ( 'NONE', #209, #131, #151 ) ;
#165 = CARTESIAN_POINT ( 'NONE',  ( -6.350000000000002309, 6.350000000000001421, 6.349999999999999645 ) ) ;
#166 = CC_DESIGN_SECURITY_CLASSIFICATION ( #40, ( #98 ) ) ;
#167 = ORIENTED_EDGE ( 'NONE', *, *, #83, .F. ) ;
#168 = DIRECTION ( 'NONE',  ( -6.829619984160658046E-17, 1.000000000000000000, -0.000000000000000000 ) ) ;
#169 = CARTESIAN_POINT ( 'NONE',  ( 6.349999999999998757, 6.349999999999998757, 6.349999999999999645 ) ) ;
#170 = ORIENTED_EDGE ( 'NONE', *, *, #315, .T. ) ;
#171 = EDGE_CURVE ( 'NONE', #71, #116, #74, .T. ) ;
#172 = PERSON_AND_ORGANIZATION ( #138, #238 ) ;
#173 = ORIENTED_EDGE ( 'NONE', *, *, #137, .F. ) ;
#174 = DATE_TIME_ROLE ( 'classification_date' ) ;
#175 = ORIENTED_EDGE ( 'NONE', *, *, #141, .T. ) ;
#176 = ADVANCED_BREP_SHAPE_REPRESENTATION ( 'N-SF1-BPBSC-12.7-900-1300', ( #38, #144, #70 ), #64 ) ;
#177 = LINE ( 'NONE', #184, #109 ) ;
#178 = VERTEX_POINT ( 'NONE', #231 ) ;
#179 = LINE ( 'NONE', #8, #293 ) ;
#180 = CC_DESIGN_APPROVAL ( #279, ( #40 ) ) ;
#181 = CC_DESIGN_PERSON_AND_ORGANIZATION_ASSIGNMENT ( #99, #300, ( #297 ) ) ;
#182 = CARTESIAN_POINT ( 'NONE',  ( 6.349999999999996980, 6.349999999999996980, 6.349999999999999645 ) ) ;
#183 = EDGE_CURVE ( 'NONE', #218, #100, #103, .T. ) ;
#184 = CARTESIAN_POINT ( 'NONE',  ( 6.349999999999996980, 6.349999999999996980, -6.349999999999999645 ) ) ;
#185 = DIRECTION ( 'NONE',  ( -2.903408047666378392E-16, -1.000000000000000000, 0.000000000000000000 ) ) ;
#186 = PRODUCT ( 'N-SF1-BPBSC-12.7-900-1300', 'N-SF1-BPBSC-12.7-900-1300', '', ( #250 ) ) ;
#187 = LOCAL_TIME ( 10, 14, 15.00000000000000000, #228 ) ;
#188 = VECTOR ( 'NONE', #159, 999.9999999999998863 ) ;
#189 = PRODUCT_DEFINITION_SHAPE ( 'NONE', 'NONE',  #297 ) ;
#190 = FACE_OUTER_BOUND ( 'NONE', #5, .T. ) ;
#191 = ORIENTED_EDGE ( 'NONE', *, *, #60, .F. ) ;
#192 = CARTESIAN_POINT ( 'NONE',  ( 6.349999999999998757, 6.349999999999998757, 6.349999999999999645 ) ) ;
#193 = CARTESIAN_POINT ( 'NONE',  ( 0.000000000000000000, 0.000000000000000000, 6.349999999999999645 ) ) ;
#194 = ORIENTED_EDGE ( 'NONE', *, *, #110, .T. ) ;
#195 =( NAMED_UNIT ( * ) SI_UNIT ( $, .STERADIAN. ) SOLID_ANGLE_UNIT ( ) );
#196 = EDGE_CURVE ( 'NONE', #220, #218, #87, .T. ) ;
#197 = EDGE_LOOP ( 'NONE', ( #191, #304, #27, #200 ) ) ;
#198 = APPROVAL_STATUS ( 'not_yet_approved' ) ;
#199 = PERSON_AND_ORGANIZATION ( #138, #238 ) ;
#200 = ORIENTED_EDGE ( 'NONE', *, *, #146, .T. ) ;
#201 = DIRECTION ( 'NONE',  ( 1.000000000000000000, 0.000000000000000000, 0.000000000000000000 ) ) ;
#202 = CALENDAR_DATE ( 2021, 5, 1 ) ;
#203 = PLANE ( 'NONE',  #164 ) ;
#204 = PLANE ( 'NONE',  #37 ) ;
#205 = SECURITY_CLASSIFICATION_LEVEL ( 'unclassified' ) ;
#206 = ORIENTED_EDGE ( 'NONE', *, *, #12, .F. ) ;
#207 = DIRECTION ( 'NONE',  ( 1.000000000000000000, 0.000000000000000000, 0.000000000000000000 ) ) ;
#208 = EDGE_CURVE ( 'NONE', #292, #299, #145, .T. ) ;
#209 = CARTESIAN_POINT ( 'NONE',  ( -6.349999999999998757, -6.349999999999997868, 6.349999999999999645 ) ) ;
#210 = DIRECTION ( 'NONE',  ( -6.829619984160658046E-17, 1.000000000000000000, -0.000000000000000000 ) ) ;
#211 = VECTOR ( 'NONE', #92, 1000.000000000000000 ) ;
#212 = LINE ( 'NONE', #286, #188 ) ;
#213 = DIRECTION ( 'NONE',  ( 0.000000000000000000, 0.000000000000000000, -1.000000000000000000 ) ) ;
#214 = DIRECTION ( 'NONE',  ( 1.000000000000000000, 0.000000000000000000, 0.000000000000000000 ) ) ;
#215 = EDGE_CURVE ( 'NONE', #292, #178, #247, .T. ) ;
#216 = CARTESIAN_POINT ( 'NONE',  ( -6.349999999999999645, -6.350000000000000533, -6.349999999999999645 ) ) ;
#217 = PLANE ( 'NONE',  #9 ) ;
#218 = VERTEX_POINT ( 'NONE', #18 ) ;
#219 = ADVANCED_FACE ( 'NONE', ( #61 ), #20, .T. ) ;
#220 = VERTEX_POINT ( 'NONE', #244 ) ;
#221 = COORDINATED_UNIVERSAL_TIME_OFFSET ( 8, 0, .AHEAD. ) ;
#222 = APPROVAL_STATUS ( 'not_yet_approved' ) ;
#223 = ORIENTED_EDGE ( 'NONE', *, *, #110, .F. ) ;
#224 = PERSON_AND_ORGANIZATION_ROLE ( 'design_owner' ) ;
#225 = CALENDAR_DATE ( 2021, 5, 1 ) ;
#226 = FACE_OUTER_BOUND ( 'NONE', #276, .T. ) ;
#227 = LOCAL_TIME ( 10, 14, 15.00000000000000000, #95 ) ;
#228 = COORDINATED_UNIVERSAL_TIME_OFFSET ( 8, 0, .AHEAD. ) ;
#229 = PERSON_AND_ORGANIZATION ( #138, #238 ) ;
#230 = CARTESIAN_POINT ( 'NONE',  ( 6.349999999999998757, 6.349999999999998757, 6.349999999999999645 ) ) ;
#231 = CARTESIAN_POINT ( 'NONE',  ( -6.349999999999998757, -6.349999999999997868, -6.349999999999999645 ) ) ;
#232 = CC_DESIGN_PERSON_AND_ORGANIZATION_ASSIGNMENT ( #275, #50, ( #98 ) ) ;
#233 = LINE ( 'NONE', #132, #259 ) ;
#234 = DATE_AND_TIME ( #202, #266 ) ;
#235 = LINE ( 'NONE', #10, #22 ) ;
#236 = CARTESIAN_POINT ( 'NONE',  ( 0.000000000000000000, 0.000000000000000000, -6.349999999999999645 ) ) ;
#237 = CARTESIAN_POINT ( 'NONE',  ( 0.000000000000000000, 0.000000000000000000, -6.349999999999999645 ) ) ;
#238 = ORGANIZATION ( 'UNSPECIFIED', 'UNSPECIFIED', '' ) ;
#239 = EDGE_CURVE ( 'NONE', #220, #104, #142, .T. ) ;
#240 = UNCERTAINTY_MEASURE_WITH_UNIT (LENGTH_MEASURE( 1.000000000000000082E-05 ), #119, 'distance_accuracy_value', 'NONE');
#241 = CARTESIAN_POINT ( 'NONE',  ( -6.349999999999998757, -6.349999999999997868, 6.349999999999999645 ) ) ;
#242 = PLANE ( 'NONE',  #308 ) ;
#243 = CC_DESIGN_PERSON_AND_ORGANIZATION_ASSIGNMENT ( #301, #224, ( #186 ) ) ;
#244 = CARTESIAN_POINT ( 'NONE',  ( -6.349999999999999645, -6.350000000000000533, 6.349999999999999645 ) ) ;
#245 = ADVANCED_FACE ( 'NONE', ( #117 ), #242, .T. ) ;
#246 = ORIENTED_EDGE ( 'NONE', *, *, #60, .T. ) ;
#247 = LINE ( 'NONE', #311, #84 ) ;
#248 = LINE ( 'NONE', #23, #289 ) ;
#249 = APPLICATION_CONTEXT ( 'configuration controlled 3d designs of mechanical parts and assemblies' ) ;
#250 = MECHANICAL_CONTEXT ( 'NONE', #249, 'mechanical' ) ;
#251 = ADVANCED_FACE ( 'NONE', ( #190 ), #217, .F. ) ;
#252 = APPROVAL_STATUS ( 'not_yet_approved' ) ;
#253 = AXIS2_PLACEMENT_3D ( 'NONE', #32, #185, #82 ) ;
#254 = CARTESIAN_POINT ( 'NONE',  ( 6.349999999999998757, 6.349999999999998757, 6.349999999999999645 ) ) ;
#255 = DIRECTION ( 'NONE',  ( 0.000000000000000000, 0.000000000000000000, -1.000000000000000000 ) ) ;
#256 = ORIENTED_EDGE ( 'NONE', *, *, #83, .T. ) ;
#257 = DIRECTION ( 'NONE',  ( 1.000000000000000000, -2.903408047666378392E-16, 0.000000000000000000 ) ) ;
#258 = ADVANCED_FACE ( 'NONE', ( #67 ), #294, .F. ) ;
#259 = VECTOR ( 'NONE', #79, 1000.000000000000000 ) ;
#260 = DIRECTION ( 'NONE',  ( 1.000000000000000000, -2.903408047666378392E-16, 0.000000000000000000 ) ) ;
#261 = APPROVAL_PERSON_ORGANIZATION ( #26, #320, #72 ) ;
#262 = DIRECTION ( 'NONE',  ( -0.7071067811865475727, 0.7071067811865475727, 0.000000000000000000 ) ) ;
#263 = CARTESIAN_POINT ( 'NONE',  ( -6.349999999999998757, -6.349999999999997868, 6.349999999999999645 ) ) ;
#264 = CLOSED_SHELL ( 'NONE', ( #129, #15, #53, #245, #162 ) ) ;
#265 = LINE ( 'NONE', #268, #78 ) ;
#266 = LOCAL_TIME ( 10, 14, 15.00000000000000000, #134 ) ;
#267 = ORIENTED_EDGE ( 'NONE', *, *, #122, .T. ) ;
#268 = CARTESIAN_POINT ( 'NONE',  ( 6.349999999999998757, 6.349999999999998757, -6.349999999999999645 ) ) ;
#269 = ORIENTED_EDGE ( 'NONE', *, *, #196, .T. ) ;
#270 = DIRECTION ( 'NONE',  ( -0.000000000000000000, -0.000000000000000000, -1.000000000000000000 ) ) ;
#271 = EDGE_CURVE ( 'NONE', #21, #17, #248, .T. ) ;
#272 = PERSON_AND_ORGANIZATION_ROLE ( 'creator' ) ;
#273 = ORIENTED_EDGE ( 'NONE', *, *, #215, .T. ) ;
#274 = DATE_AND_TIME ( #121, #156 ) ;
#275 = PERSON_AND_ORGANIZATION ( #138, #238 ) ;
#276 = EDGE_LOOP ( 'NONE', ( #316, #223, #298, #269 ) ) ;
#277 = CARTESIAN_POINT ( 'NONE',  ( -6.350000000000002309, 6.350000000000001421, -6.349999999999999645 ) ) ;
#278 = VECTOR ( 'NONE', #213, 1000.000000000000000 ) ;
#279 = APPROVAL ( #222, 'UNSPECIFIED' ) ;
#280 = ORIENTED_EDGE ( 'NONE', *, *, #146, .F. ) ;
#281 = DIRECTION ( 'NONE',  ( -0.000000000000000000, -0.000000000000000000, -1.000000000000000000 ) ) ;
#282 = PERSON_AND_ORGANIZATION_ROLE ( 'classification_officer' ) ;
#283 = CC_DESIGN_PERSON_AND_ORGANIZATION_ASSIGNMENT ( #172, #272, ( #98 ) ) ;
#284 = DIRECTION ( 'NONE',  ( 0.000000000000000000, 1.000000000000000000, 0.000000000000000000 ) ) ;
#285 = DATE_AND_TIME ( #225, #227 ) ;
#286 = CARTESIAN_POINT ( 'NONE',  ( 6.349999999999996980, 6.349999999999996980, 6.349999999999999645 ) ) ;
#287 = CARTESIAN_POINT ( 'NONE',  ( 6.349999999999996980, 6.349999999999996980, -6.349999999999999645 ) ) ;
#288 = CC_DESIGN_APPROVAL ( #133, ( #98 ) ) ;
#289 = VECTOR ( 'NONE', #16, 1000.000000000000000 ) ;
#290 = DIRECTION ( 'NONE',  ( 1.000000000000000000, 0.000000000000000000, 0.000000000000000000 ) ) ;
#291 = DIRECTION ( 'NONE',  ( 0.7071067811865475727, -0.7071067811865475727, 0.000000000000000000 ) ) ;
#292 = VERTEX_POINT ( 'NONE', #263 ) ;
#293 = VECTOR ( 'NONE', #281, 1000.000000000000000 ) ;
#294 = PLANE ( 'NONE',  #295 ) ;
#295 = AXIS2_PLACEMENT_3D ( 'NONE', #169, #291, #66 ) ;
#296 = DIRECTION ( 'NONE',  ( -2.220446049250312588E-16, 1.000000000000000000, 0.000000000000000000 ) ) ;
#297 = PRODUCT_DEFINITION ( 'UNKNOWN', '', #98, #309 ) ;
#298 = ORIENTED_EDGE ( 'NONE', *, *, #239, .F. ) ;
#299 = VERTEX_POINT ( 'NONE', #165 ) ;
#300 = PERSON_AND_ORGANIZATION_ROLE ( 'creator' ) ;
#301 = PERSON_AND_ORGANIZATION ( #138, #238 ) ;
#302 = ORIENTED_EDGE ( 'NONE', *, *, #239, .T. ) ;
#303 = PLANE ( 'NONE',  #62 ) ;
#304 = ORIENTED_EDGE ( 'NONE', *, *, #215, .F. ) ;
#305 = DIRECTION ( 'NONE',  ( -0.7071067811865474617, -0.7071067811865474617, 0.000000000000000000 ) ) ;
#306 = FACE_OUTER_BOUND ( 'NONE', #123, .T. ) ;
#307 = CARTESIAN_POINT ( 'NONE',  ( 6.349999999999996980, 6.349999999999996980, 6.349999999999999645 ) ) ;
#308 = AXIS2_PLACEMENT_3D ( 'NONE', #193, #39, #296 ) ;
#309 = DESIGN_CONTEXT ( 'detailed design', #36, 'design' ) ;
#310 = APPLICATION_PROTOCOL_DEFINITION ( 'international standard', 'config_control_design', 1994, #249 ) ;
#311 = CARTESIAN_POINT ( 'NONE',  ( -6.349999999999998757, -6.349999999999997868, 6.349999999999999645 ) ) ;
#312 = ORIENTED_EDGE ( 'NONE', *, *, #271, .T. ) ;
#313 = CARTESIAN_POINT ( 'NONE',  ( 0.000000000000000000, 0.000000000000000000, 6.349999999999999645 ) ) ;
#314 = VECTOR ( 'NONE', #33, 999.9999999999998863 ) ;
#315 = EDGE_CURVE ( 'NONE', #100, #17, #265, .T. ) ;
#316 = ORIENTED_EDGE ( 'NONE', *, *, #183, .T. ) ;
#317 =( NAMED_UNIT ( * ) PLANE_ANGLE_UNIT ( ) SI_UNIT ( $, .RADIAN. ) );
#318 = ORIENTED_EDGE ( 'NONE', *, *, #183, .F. ) ;
#319 = PERSON_AND_ORGANIZATION ( #138, #238 ) ;
#320 = APPROVAL ( #198, 'UNSPECIFIED' ) ;
#321 = ORIENTED_EDGE ( 'NONE', *, *, #196, .F. ) ;
ENDSEC;
END-ISO-10303-21;
